(tablatura) Pelos olhos da fé - Comunidade Cristã de Goiânia

INTRO:

E|-------------------------------------------------- ----------------------------|
B|--------10-9-----------------------------------------10-12-----------14-12-10--|
G|-----9-------9---------------------------------9-----------9h11---9------------|
D|---------------9h11---9p7--11-7---7-9-7-9-7-11---11----------------------------|
A|-------------------------------------------------------------------------------|
E|-------------------------------------------------------------------------------|

SOLO:

E|-------------------------------------------------------|
B|---------------10--------------12b-12b--12p10--12/14---|
G|------------9-----9-----9h11---------------------------|
D|---7-9-11----------11----------------------------------|
A|-------------------------------------------------------|
E|-------------------------------------------------------|
________________________
Tablatura de Guitarra da música Pelos olhos da fé da Comunidade Cristã de Goiânia
((Só Cifras Gospel - Cifras e Letras Evangélicas))

Postar um comentário

0 Comentários