(tablatura) Como Ele nos amou - Kleber Lucas

INTRO: Dm, Bb, F, C  6x

E|--------------------------------------|
A|--------------------------------------|
D|-----------------------15--------15-12|
G|----14------------14-12--12-14-12-----|
B|--15--13-15--15-13--------------------|
E|-----------13-------------------------|

SOLO: D#m, B, F#m, C#

E|-----------------------------------------------------------|
A|-----------------------------------------------------------|
D|-----------------------------------------------------------|
G|-----------------------------------------------------------|
B|--14b--16b--17b--21b----21b-19-21-14b---14-11-14b----14-11-|
E|--11---13---14-------19---------------11----------11-------|

E|-----------------------------------------------------------|
A|-----------------------------------------------------------|
D|-----------------------------------------------------------|
G|-----------------13b-13b-11-13-11-13-----------------------|
B|-14b---14-11-14b---------------------13b-------------------|
E|-----11----------------------------------------------------|

Ver cifra
________________________
Tablatura de Guitarra da música Como Ele nos amou de Kleber Lucas
((Só Cifras Gospel - Cifras e Letras Evangélicas))

Postar um comentário

0 Comentários