(tablatura) Sobrevivi - Sarah Farias

BASE: B, G#m, E, F#

E|-----------------------------------------------------------|
B|-----------------------------------------------------------|
G|-----------------------------------------------------------|
D|-11---------7--11---------11---11---11----13---13--17~-----|
A|---12-11~~7------12-11~~9---12---14----16~---16--------20--|
E|-------------------------------------11--------------------|
  
E|-----------------------------------------------------------|
B|-----------------------------------------------------------|
G|--------------------18-------------------------------------|
D|----------18--16/15----15/16-------------------------------|
A|----17/16--------------------------------------------------|
E|-------------------------------18/19-----------------------|

 Ver cifra
____________________________

Tablatura de Guitarra da música Sobrevivi de Sarah Farias

((Só Cifras Gospel - Cifras e Letras Evangélicas))

Postar um comentário

0 Comentários