(tablatura) Correr para Deus - Aline Barros

INTRO: C#m, E, B, C#m, E, B

E|--------------------------------|---------------------------------||
B|--------------------------------|---------------------------------||
G|----------------------------6---|----------------------------6----||
D|------------4-2-----------------|------------4-2------------------||
A|2-4-2-4-2-4-----2-4-2-4-2-4-----|2-4-2-4-2-4-----2-4-2-4-2-4------||
E|--------------------------------|---------------------------------||

E|--------------------------------|------------------------------------||
B|------------9----9-5----9-5-----|------------9-----9-5------9-5------||
G|4-4/6-6-8-9--4-4----4-4-----4-4-|6-4-6-6-8-9---4-4------4-4-----4-4--||
D|--------------------------------|------------------------------------||
A|--------------------------------|------------------------------------||
E|--------------------------------|------------------------------------||

SOLO: C#m, A, C#m, A

E|-7-5-4-----4-0---2---7-----------------||
B|-------5-------2---0---9h10/9------9---||
G|---------4--------------------9------11||
D|--------------------------------11-----||
A|---------------------------------------||
E|---------------------------------------||

________________________ 
Tablatura de Guitarra da música Correr para Deus de Aline Barros
((Só Cifras Gospel - Cifras e Letras Evangélicas))

Postar um comentário

0 Comentários