(tablatura) Abra os olhos do meu coração - David Quinlan

SOLO 1: E9, B/D#, C#m, A, E9, B/D#, E9, B/D#

E|-----------------------------------------------12-14-|
B|-----14-----------------------------12-----/12-------|
G|-11b----11pbr--9-11b-9-9------9-11b------------------|
D|-------------------------9h11------------------------|
A|-----------------------------------------------------|
E|-----------------------------------------------------|

E|-14b-14------14-16b-16----19b-19-17-19-16------------|
B|----------17-----------17-----------------17---------|
G|---------------------------------------------16-14-16|
D|-----------------------------------------------------|
A|-----------------------------------------------------|
E|-----------------------------------------------------|

E|-----------------------------------------------------|
B|---------------------------------------14h16h17~~----|
G|-13---------------------------13h14h16---------------|
D|----14---------------13h14h16------------------------|
A|-------14---12h14h16---------------------------------|
E|-----------------------------------------------------|
E|----------------------------------19b-19-17-16-------|
B|-16h17h19~~--17h19h21~---19--17-----------------19---|
G|-----------------------------------------------------|
D|-----------------------------------------------------|
A|-----------------------------------------------------|
E|-----------------------------------------------------|

E|-----------------------------------------------------|
B|-19br-17---19b-17----------17------------------------|
G|------------------16br-16----------------------------|
D|-----------------------------------------------------|
A|-----------------------------------------------------|
E|-----------------------------------------------------|


SOLO 2: E9, B/D#, C#m, A, F#m, B9

E|-----------------------------------------------------|
B|-----------------------------------------------------|
G|--/9-/11-/14-13-9--/11--/13-11--11brp10p9--9h11brp9--|
D|-----------------------------------------------------|
A|-----------------------------------------------------|
E|-----------------------------------------------------|

E|------------------12br------12---12------------------|
B|-------------12br--------12---------12---------------|
G|-------9-11br---------------------------11br-9-------|
D|---/9-------------------------------------------9----|
A|-----------------------------------------------------|
E|-----------------------------------------------------|

E|-----------------------------------------------------|
B|-----------------12b-12-12-10-12b--10-10p9-10-9------|
G|-----9-11-9-11b----------------------------------9---|
D|-/9--------------------------------------------------|
A|-----------------------------------------------------|
E|-----------------------------------------------------|

E|------------------------------------9h11h12--11h12h14|
B|----------------------------9h10h11------------------|
G|---------------------8h9h11--------------------------|
D|--------------7h9h11---------------------------------|
A|-------7h9h11----------------------------------------|
E|-7h9h11----------------------------------------------|

E|--12h14h16b_______\----------------------------------|
B|-----------------------------------------------------|
G|-----------------------------------------------------|
D|-----------------------------------------------------|
A|-----------------------------------------------------|
E|-----------------------------------------------------|


_______________________
Tablatura da música Abra os olhos do meu Coração de David Quinlan
((Só Cifras Gospel - Cifras e Letras Evangélicas))

Postar um comentário

0 Comentários