(tablatura) Situações - Shirley Carvalhaes

BASE: A, A4, A, E/G#, F#m7, D/F#, Bm7, Bm7/A, E/G#, D/F#, E/G#, E

E|-----------------------------------------|
B|-----------------------------------------|
G|-----------------------------------------|
D|---2----2-----------2---2----------2----4|
A|4-----4---------------4---------4-----4--|
E|-----------------------------------------|

E|-----------------------------------------|
B|-----------------------------------------|
G|---2----2-----------2---2----------------|
D|4-----4-----------4---4-----4-2----------|
A|------------------------------------4-2--|
E|-----------------------------------------|

E|5--4--2-4----2-2-9-------7--5--4-7---5-5-----5-4-2|
B|--------------------------------------------------|
G|--------------------------------------------------|
D|--------------------------------------------------|
A|--------------------------------------------------|
E|--------------------------------------------------|

E|2--4----5---0-0----0-2---0-0-----0----------------|
B|3--5----5---2-2----2-3---2-2-----0---0-----------0|
G|-------------------------------------1----2------1|
D|------------------------------------------2-------|
A|--------------------------------------------------|
E|--------------------------------------------------|


________________________
Tablatura de Guitarra da música Situações de Shirley Carvalhaes
((Só Cifras Gospel - Cifras e Letras Evangélicas))

Nenhum comentário

Seu comentário não será aceito: caso seja pedido de cifra (utilize o email), caso utilize palavrões ou qualquer coisa que fira príncipios, ok."Somos sal da terra e luz do mundo"

Tecnologia do Blogger.