(tablatura) Não pare - Midian Lima

INTRO: E, B/D#, C#m7, A

E|-------------7---------------7----------------|
B|-5--7--5--7------5--7--5--7-------------------|
G|----------------------------------------------|
D|----------------------------------------------|
A|-7---------------6----------------------------|
E|----------------------------------------------|

E|-------------7--5--4--------------------------|
B|-5--7--5--7-----------2-----------------------|
G|----------------------------------------------|
D|----------------------------------------------|
A|-4--------------------0-----------------------|
E|----------------------------------------------|


__________________
Tablatura de Guitarra da música Não pare de Midian Lima
((Só Cifras Gospel - Cifras e Letras Evangélicas))

Postar um comentário

0 Comentários