(Tablatura) Santidade - Aline Barros

INTRO:

E|-11/13-13-11-11-10-10-----11/13-13-11-11-10-10-----|
B|----------------------11-----------------------11--|
G|---------------------------------------------------|
D|---------------------------------------------------|
A|---------------------------------------------------|
E|---------------------------------------------------|


E|-11/13-13-11-11-10-10------------------------------|
B|----------------------11---------------------------|
G|-------------------------10/12--10\5---------------|
D|-------------------------------------8-------------|
A|---------------------------------------------------|
E|---------------------------------------------------|


E|-11/13-13-11-11-10-10-----11/13-13-11-11-10-10-----|
B|----------------------11----------------------11---|
G|---------------------------------------------------|
D|---------------------------------------------------|
A|---------------------------------------------------|
E|---------------------------------------------------|


E|-11/13-13-11-11-10-10------------------------------|
B|---------------------11----------------------------|
G|-----------------------10/12~----------------------|
D|---------------------------------------------------|
A|---------------------------------------------------|
E|---------------------------------------------------|

* ver cifra
__________________
Tablatura da música Santidade de Aline Barros
((Só Cifras Gospel - Cifras e Letras Evangélicas))

Nenhum comentário

Seu comentário não será aceito: caso seja pedido de cifra (utilize o email), caso utilize palavrões ou qualquer coisa que fira príncipios, ok."Somos sal da terra e luz do mundo"