(Tablatura) Rei meu - Aline Barros

INTRO:

E---------|----------------------|----------------
B—10/12~~~|----------------------|----------------
G---------|----------------------|----------------
D---------|----------------------|----------------
A---------|----5-5-----7-7---7---|-5-5--7-5-7-----
E---------|----------------------|----------------

E------9/12-|------------------------------------7/10-10~--------7/10--
B-----------|----------------------------------------------------------
G--9--------|-----------7/9~~----------~7/9/7~~--------7-7-------------
D-----------|--6--7--9--------6--7--9----------------------------------
A-----------|----------------------------------------------------------
E-----------|----------------------------------------------------------

E------9/12-|------------------------------------7/10-~~~--------7/10--
B-----------|----------------------------------------------------------
G-----------|-----------7/9~~----------~7/9/7~~------------7-7---------
D-----------|--6--7--9--------6--7--9----------------------------------
A-----------|----------------------------------------------------------
E-----------|----------------------------------------------------------

* Ver cifra

_____________________
Tablatura da música Rei meu de Aline Barros
((Só Cifras Gospel - Cifras e Letras Evangélicas))

Nenhum comentário

Seu comentário não será aceito: caso seja pedido de cifra (utilize o email), caso utilize palavrões ou qualquer coisa que fira príncipios, ok."Somos sal da terra e luz do mundo"

Tecnologia do Blogger.