(Tablatura) Para sempre Te adorarei - Aline Barros

INTRO:

E----------------------------------------------------
B----------------------------------------------------
G-------------5-6---------------11-12-14-14/16-14~~~~
D-----------------7/9~~------------------------------
A---5-7-9--------------------------------------------
E----------------------------------------------------

E-----------------------------------------
B---------------------15-17—17/19-17~~~~--
G--7--9—9/11-9~~--------------------------
D-----------------------------------------
A-----------------------------------------
E-----------------------------------------

SOLO:

E------------------------------------------------------------
B-----12-14----14--14--12-14----14--12--15--15-14—12~~-------
G-11----------B1/2-----------B1/2---------B1/2---------------
D------------------------------------------------------------
A------------------------------------------------------------
E------------------------------------------------------------

E-----------------13----------------------------------------
B--~13-15-15------15—15~~-----------------------------------
G------------B1-----B1--------------------------------------
D-----------------------------------------------------------
A-----------------------------------------------------------
E-----------------------------------------------------------

E---------------14-15-14-------------14---------------------------
B--14-15-17--------------17-15-17-----17--15-17-15-14-------------
G--------------------------------------------------------16-14-16-
D-----------------------------------------------------------------
A-----------------------------------------------------------------
E-----------------------------------------------------------------

E-------------------------------14-15--16-~~16~~-----------
B--14-15-14-15-17--15-17---------b1/2-b1/2-----------------
G----------------------------------------------------------
D----------------------------------------------------------
A----------------------------------------------------------
E----------------------------------------------------------

* ver cifra
______________________
Tablatura da música Para sempre te adorarei de Aline Barros
((Só Cifras Gospel - Cifras e Letras Evangélicas))

Nenhum comentário

Seu comentário não será aceito: caso seja pedido de cifra (utilize o email), caso utilize palavrões ou qualquer coisa que fira príncipios, ok."Somos sal da terra e luz do mundo"

Tecnologia do Blogger.