(Tablatura) Depois da cruz - Aline Barros

INTRO:

E|-5/6-5-----5/6-5-----5/6-5--------------------------|
B|-------3~--------3~--------3~----3-4-3--------------|
G|-------------------------------5-------5-3-3~-2~-3--|
D|----------------------------------------------------|
A|----------------------------------------------------|
E|----------------------------------------------------|

SOLO:

Solo Final:

E|-6-5-----6-5-----------6-5--------------------------|
B|-----3~------3~-3\1--------3~--3\1---1/3~-----------|
G|--------------------3--------------3----------------|
D|----------------------------------------------------|
A|----------------------------------------------------|
E|----------------------------------------------------|

* ver cifra
________________
Tablatura de Guitarra da música Depois da cruz de Aline Barros
((Só Cifras Gospel - Cifras e Letras Evangélicas))

Nenhum comentário

Seu comentário não será aceito: caso seja pedido de cifra (utilize o email), caso utilize palavrões ou qualquer coisa que fira príncipios, ok."Somos sal da terra e luz do mundo"