(tablatura) Santidade - Kleber Lucas - Só Cifras Gospel

(tablatura) Santidade - Kleber Lucas

Tom: A
INTRODUÇÃO
BASE-SOLO: F#m, D, A, E (2x)

E|----------------------------------------------------------|
B|---7-9--10~ -----10-9--7~ ----11--9~ ---------------------|
G|---------------------------11----------6-7-7/9-9~ --------|
D|----------------------------------------------------------|
A|----------------------------------------------------------|
E|----------------------------------------------------------|

E|----------------------------------------------------------|
B|---7-9--10~ -----10-9--7~ ----11--9--7--6-----------------|
G|---------------------------11---------------6-7-7/9-9~ ---|
D|----------------------------------------------------------|
A|----------------------------------------------------------|
E|----------------------------------------------------------|
________________________
Tablatura para Guitarra da música Santidade de Kleber Lucas
((Só Cifras Gospel - Cifras e Letras Evangélicas))

Nenhum comentário:

Postar um comentário

Seu comentário não será aceito: caso seja pedido de cifra (utilize o email), caso utilize palavrões ou qualquer coisa que fira príncipios, ok."Somos sal da terra e luz do mundo"