(tablatura) Mais que uma voz - Kleber Lucas

BASE-SOLO: D, D/F#, A, A/C#, Bm, G, A

E|----------------------------------------|
B|--------------------------------7-------|
G|----------6---6-7-9-7-6-7---7-9---9-7-6-|
D|---7-9-10-------------------------------|
A|-9--------------------------------------|
E|----------------------------------------|

E|--------------------------|
B|-7------------------------|
G|---9-7-6-7-6-------------7|
D|-------------9-7-9-7-5-9--|
A|--------------------------|
E|--------------------------|

* Ver Cifra
___________________
Tablatura de guitarra da música Mais que uma voz de Kleber Lucas
((Só Cifras Gospel - Cifras e Letras Evangélicas))

Nenhum comentário

Seu comentário não será aceito: caso seja pedido de cifra (utilize o email), caso utilize palavrões ou qualquer coisa que fira príncipios, ok."Somos sal da terra e luz do mundo"

Tecnologia do Blogger.