(tablatura) Superabundou a graça - Fernandinho

INTRO: Am, F, C, G 2X
SOLO:4X
E|----------------------------------------------------|
B|--10----10--8--10-----------------------------------|
G|------------------9----9---7------------------------|
D|-----10-------------10------------------------------|
A|----------------------------------------------------|
E|----------------------------------------------------| 


BASE: F, C, G
Solo  do Meio
E|------------------------------------------------------------|
B|---10---8---10---8------------------------------------------|
G|-9----9---9----9------7----7--7---7/9--9--9\7-----7---------|
D|-------------------10---10---------------------10---10------|
A|------------------------------------------------------------|
E|------------------------------------------------------------| 
 
_______________
Tablatura de guitarra da música Superabundou a graça de Fernandinho
((Só Cifras Gospel - Cifras e Letras Evangélicas))
tablatura enviada por Henrique Guerreiro

Nenhum comentário

Seu comentário não será aceito: caso seja pedido de cifra (utilize o email), caso utilize palavrões ou qualquer coisa que fira príncipios, ok."Somos sal da terra e luz do mundo"

Tecnologia do Blogger.