(tablatura) Vou deixar na cruz - Kleber Lucas - Só Cifras Gospel

(tablatura) Vou deixar na cruz - Kleber Lucas

INTRO: (Dm, Bb, F, C9)

e:-----------------------------------------------
B:-----------------------------------------------
G:-10-9-7-5-7-7--10-9-7-5-7--10-9-7-5------------
D:------------------------------------7-5-5-5/10-
A:-----------------------------------------------
E:-----------------------------------------------

e:---------------------------------------------------------------
B:---------------------------------10-11-13-11-10----------------
G:-10-9-7-5-7-7--10-9-7-5-7--10-12----------------12-10-12-10-12-
D:---------------------------------------------------------------
A:---------------------------------------------------------------
E:---------------------------------------------------------------

Solo (C9, Gm, F)

e:-18b--------17-17b-------------------------------------
B:-------------------15-15~--15/18\13~----8h10-8----8-10-
G:------17-17--------------------------10--------10---10-
D:-------------------------------------------------------
A:-------------------------------------------------------
E:-------------------------------------------------------

e:--------------------12-13-------------------------------------------
B:-10/11-10-------15b-------15b---------13-15-15b-15~--8-10-10/11-10~-
G:-10----10-5-5h-----------------12/14--------------------------------
D:--------------------------------------------------------------------
A:--------------------------------------------------------------------
E:--------------------------------------------------------------------
__________________
Tablatura de Guitarra da música Vou deixar na cruz de Kleber Lucas
((Só Cifras Gospel - Cifras e Letras Evangélicas))

Nenhum comentário:

Postar um comentário

Seu comentário não será aceito: caso seja pedido de cifra (utilize o email), caso utilize palavrões ou qualquer coisa que fira príncipios, ok."Somos sal da terra e luz do mundo"