(tablatura) Deus me ama - Thalles

INTRO: C9, Bb


E|-15~--15/17-13-15-12-13/15-13-12-------13-12/13----------------------
B|----13--------------------------13-------------13-13/15-----13--15---
G|----------------------------------14-14----------------12-12--12--12-
D|---------------------------------------------------------------------
A|---------------------------------------------------------------------
E|---------------------------------------------------------------------

E|15~--15/17-17/19-15-12/13----12/13----12/13-----------------------------------
B|---13--------------------13-------13-------13---------------------------------
G|---------------------------14-------14-------14-12/14--12---------------------
D|-----------------------------------------------------14--14-12-14-12-10/12-10~
A|------------------------------------------------------------------------------
E|------------------------------------------------------------------------------

______________
Tablatura de Guitarra da música Deus me ama de Thalles Roberto
((Só Cifras Gospel – Cifras e Letras Evangélicas))
Tablatura enviada por Ronaldo d. S

Nenhum comentário

Seu comentário não será aceito: caso seja pedido de cifra (utilize o email), caso utilize palavrões ou qualquer coisa que fira príncipios, ok."Somos sal da terra e luz do mundo"

Tecnologia do Blogger.