(tablatura) Vem, a hora chegou de adorá-lo - David Quinlan

Solo

E------------------------------------------
B------9------9-9/10/9----9/10-10^12-10-9--
G-9-11---9/11----------11------------------
D------------------------------------------
A------------------------------------------
E------------------------------------------

E-----------------------------------   ---------
B-9-------------9-9/10/9----10-9----   -------9-
G---11-9-11--11----------11------9--   --9-11---
D-----------------------------------2x ---------
A-----------------------------------   ---------
E-----------------------------------   ---------
_____________________
Tablatura de Guitarra/Violão da música Vem, a hora chegou de adorá-lo de David Quinlan
((Só Cifras Gospel - Cifras e Letras Evangélicas))

Nenhum comentário

Seu comentário não será aceito: caso seja pedido de cifra (utilize o email), caso utilize palavrões ou qualquer coisa que fira príncipios, ok."Somos sal da terra e luz do mundo"

Tecnologia do Blogger.