(tablatura-Guitarra) Se Deus é por nós - Fernandinho

INTRO: F#m, G#m, A9

INTRO solo

E-12----9--------9----12---9-------9----12---9-----------------------
B-12-12---12--12---12----12--12--12--12---12--12--12--10-9-10-9-10-9-
G--------------------------------------------------------------------
D--------------------------------------------------------------------
A--------------------------------------------------------------------
E--------------------------------------------------------------------

E-12----9--------9----12----9--------9----9-------------
B-12-12---12--12---12----12---12--12---12---------------
G-------------------------------------------------------
D-------------------------------------------------------
A-------------------------------------------------------
E-------------------------------------------------------
_____________________
Tablatura de Guitarra/Violão da música Se Deus é por nós de Fernandinho
((Só Cifras Gospel - Cifras e Letras Evangélicas))

Nenhum comentário

Seu comentário não será aceito: caso seja pedido de cifra (utilize o email), caso utilize palavrões ou qualquer coisa que fira príncipios, ok."Somos sal da terra e luz do mundo"

Tecnologia do Blogger.