(tablatura-Baixo) Tudo que tem folêgo - David Quinlan

INTRO

G--------------------------------
D------7-7-7-----5-5-5--3-3--2-2-
A-5-5-5--------------------------
E-----------6-6-6----------------

G-------------------------------
D------7-7-7----------------3-3-
A-5-5-5----------5-5-5--3-3-----
E-----------6-6-6---------------
______________________
Tablatura de Contrabaixo da música Tudo que tem folêgo de David Quinlan
((Só Cifras Gospel - Cifras e Letras Evangélicas))

Nenhum comentário

Seu comentário não será aceito: caso seja pedido de cifra (utilize o email), caso utilize palavrões ou qualquer coisa que fira príncipios, ok."Somos sal da terra e luz do mundo"

Tecnologia do Blogger.