(tablatura-2) De quem é? - Irmão Lázaro

INTRO:

G--------------------------------
D---------5-7-9-7-5-----4-7------
A-7-7-7--7---------5-5-5---7-7-7-
E--------------------------------

G--------------------------------
D--5-7-9-7-5-----4-7-------------
A-7---------5-5-5---7-7-7--------
E--------------------------------
_______________________
Tablatura 2 de Contrabaixo da música De quem é? de Irmão Lázaro
((Só Cifras Gospel - Cifras e Letras Evangélicas))
Tablatura enviada por Alex

Postar um comentário

0 Comentários