(tablatura) Nada me separa de Ti - Juliana Santiago

INTRO

E----0-1-1/3----------0-1-1/3-3/5-3--3-3-1-1-0-1-1-0--------
B-1-3-------1-1/3-1--3------------------------------3-1-1/3-
G-----------------------------------------------------------
D-----------------------------------------------------------
A-----------------------------------------------------------
E-----------------------------------------------------------

E----0-1-1/3----------0-1-1/3-3/5-3--3-3-1-1-0-1-0-1-0------
B-1-3-------1-1/3-1--3--------------------------3-----1-1/3-
G------------------------------------------------------2----
D-----------------------------------------------------------
A-----------------------------------------------------------
E-----------------------------------------------------------
____________________
Tablatura de Guitarra/Violão da Música Nada me separa de Ti de Juliana Santiago
((Só Cifras Gospel - Cifras e Letras Evangélicas))

Postar um comentário

0 Comentários