(tablatura) Amizade - Quatro por Um

E-10/12-12-----------------10/12-12------------------
B---------10-14p15p14-12-14--------10-14p15p14-12-10-
G----------------------------------------------------
D----------------------------------------------------
A----------------------------------------------------
E----------------------------------------------------

E-10/12-12-----------------------------------12------------
B---------10-14p15p14-12-14-14/10-12-10-12/14--12-10----10-
G---------------------------------------------------9-11---
D----------------------------------------------------------
A----------------------------------------------------------
E----------------------------------------------------------
___________________
Tablatura de Guitarra/Violão da música Amizade de Quatro por Um
((Só Cifras Gospel - Cifras e Letras Evangélicas))

Nenhum comentário

Seu comentário não será aceito: caso seja pedido de cifra (utilize o email), caso utilize palavrões ou qualquer coisa que fira príncipios, ok."Somos sal da terra e luz do mundo"

Tecnologia do Blogger.