(tablatura) O tempo - Oficina G3

E---------5-6/8-6/8-6-5---------------------------------
B----5-6-8-------------6/8---5-6-8-8/10-10p8p6-8-8/10-6-
G-5-7----------5----------5-7---------------------------
D-------------------------------------------------------
A-------------------------------------------------------
E-------------------------------------------------------

E--6/8-----5-6-8-6-5----------------6-8-8/10-8-5---
B-----5-6-8---------8-6-5-6-8-6-5---------------6--
G-5------------------------------7-5-------------7-
D--------------------------------------------------
A--------------------------------------------------
E--------------------------------------------------
_____________________
Tablatura de Violão/Guitarra da música O Tempo de Oficina G3
((Só Cifras Gospel - Cifras e Letras Evangélicas))

Nenhum comentário

Seu comentário não será aceito: caso seja pedido de cifra (utilize o email), caso utilize palavrões ou qualquer coisa que fira príncipios, ok."Somos sal da terra e luz do mundo"

Tecnologia do Blogger.