(tablatura) Consolador - Damares - Só Cifras Gospel

(tablatura) Consolador - Damares

INTRO

E-10b12-12b10-9----10b12-12b10-9----------------
B-------------------------------10/12-9b10-10b9-
G--------------9/11-----------------------------
D-----------------------------------------------
A-----------------------------------------------
E-----------------------------------------------

E-10b12-12b10-9----12---------
B-----------------------------
G--------------9/11--9------9-
D-----------------------9h11--
A---------------------12------
E-----------------------------
________________
Tablatura da música Consolador de Damares
((Só Cifras Gospel - Cifras e Letras Evangélicas))

Nenhum comentário:

Postar um comentário

Seu comentário não será aceito: caso seja pedido de cifra (utilize o email), caso utilize palavrões ou qualquer coisa que fira príncipios, ok."Somos sal da terra e luz do mundo"