(tablatura) Abre os olhos do meu coração - Quatro por Um

INTRO:

G-12--12-14/16-12/14-12-12p11-------------
D---12-----------------------12--12/14-12-
A------------------------------14---------
E-----------------------------------------

G-12-11------------------------
D------12-------------------10-
A--------12-10-9-7------8/10---
E-----------------10-7-8-------
________________________
Tablatura de Contrabaixo da música Abre os olhos do meu coração de Quatro por Um
((Só Cifras Gospel - Cifras e Letras Evangélicas))

Nenhum comentário

Seu comentário não será aceito: caso seja pedido de cifra (utilize o email), caso utilize palavrões ou qualquer coisa que fira príncipios, ok."Somos sal da terra e luz do mundo"

Tecnologia do Blogger.