(tablatura) Sabor de mel - Damares

INTRO:

E--------------------------------------
B-10-10-10-7-8-10-10-10-8-7-8-8-7------
G--------------------------------9-7-9-
D----------------------9---------------
A--------------------------------------
E--------------------------------------

E----------------------------------------
B-10-10-10-7-8-10-10-10-8-7-8-8-7----5-3-
G--------------------------------7-9-----
D----------------------9------------5----
A----------------------------------------
E----------------------------------------

SOLO:

E----------------------------------------------7-5-3-2-----
B-----3-2-----------------------------3-2----3--------5-3--
G----2---4-2-2h4---------------------2------2-4----------4-
D-2h4-----------5-5-4-4-2-2-0-0-2-2h4----2h4---------------
A--------------------------------0-------------------------
E----------------------------------------------------------
______________________
Tablatura de Guitarra / Violão da música Sabor de Mel de Damares
((Só Cifras Gospel - Cifras e Letras Evangélicas))

Um comentário:

Seu comentário não será aceito: caso seja pedido de cifra (utilize o email), caso utilize palavrões ou qualquer coisa que fira príncipios, ok."Somos sal da terra e luz do mundo"

Tecnologia do Blogger.