(tablatura) Ressuscita - Ministério Ipiranga

INTRO:

E-----------------------3-------10----7-9-10-
B--3-5-5b7-7b5-3-5-3-5b7-7b5-----------7-7---
G-2---------------2----------7-9--9b11-------
D--------------------------------------------
A--------------------------------------------
E--------------------------------------------

E-----------15------------17--------------------
B---15-17b19--19b17--15-17--17b19-19b17-15------
G-16---------------14---------------------16-16-
D-----------------------------------------------
A-----------------------------------------------
E-----------------------------------------------

E------------15-------------
B-15-17-17b19--19b17-15h17--
G---------------------------
D---------------------------
A---------------------------
E---------------------------
________________
Tablatura da música Ressuscita do Ministério Ipiranga
((Só Cifras Gospel - Cifras e Letras Evangélicas))

2 comentários:

Seu comentário não será aceito: caso seja pedido de cifra (utilize o email), caso utilize palavrões ou qualquer coisa que fira príncipios, ok."Somos sal da terra e luz do mundo"

Tecnologia do Blogger.