(tablatura) Quero louvar-te - Corinhos - Só Cifras Gospel

(tablatura) Quero louvar-te - Corinhos

INTRO

E----------------------------------------------
B----7-9-7-9-9-9-7-9--9-11---------------------
G-7-9---------------------9-11-9-11-11-11-9-11-
D----------------------------------------------
A----------------------------------------------
E----------------------------------------------

E------------------------------
B--9-7-----9-7-----------7-9-7-
G-7---9-7-7---9-7-9-9-7-9------
D------------------------------
A------------------------------
E------------------------------
_______________________________
Tablatura de Guitarra da música Quero louvar-te de Corinhos Evangélicos
((Só Cifras Gospel - Cifras e Letras Evangélicas))

Nenhum comentário:

Postar um comentário

Seu comentário não será aceito: caso seja pedido de cifra (utilize o email), caso utilize palavrões ou qualquer coisa que fira príncipios, ok."Somos sal da terra e luz do mundo"