(tablatura) Caminho de milagres - Aline Barros

E--------------------------------------
B--------------------------------------
G-5-3-2---5-5-3-2---5-3-2-2-3-5-3-2-5--
D------5-3-------5-3-------------------
A--------------------------------------
E--------------------------------------

E------------------------------------------
B------------------------------------------
G-5-3-2---5-5-3-2---5-5-3-2-3-5-3-2--------
D------5-3-------5-3---------------5-3-2-3-
A------------------------------------------
E------------------------------------------
Quando o que era difícil
Se torna impossível
Deus começa a agir
Ele abre sempre uma porta
Onde não há saída
O impossível faz acontecer
___________________________
Tablatura de Guitarra/Violão da música Caminho de Milagres de Aline Barros
((Só Cifras Gospel - Cifras e Letras Evangélicas))

Nenhum comentário

Seu comentário não será aceito: caso seja pedido de cifra (utilize o email), caso utilize palavrões ou qualquer coisa que fira príncipios, ok."Somos sal da terra e luz do mundo"

Tecnologia do Blogger.