(tablatura) De quem é? - Irmão Lázaro - Só Cifras Gospel

(tablatura) De quem é? - Irmão Lázaro

INTRO

G----------------------------------------------------------
D-------------------7-9-7-9---------------7-4-----------
A-7-7-7---7-10-5----------5-5-5-5---5------5-7-7-7-
E----------------------------------------------------------

G----------------------------------------------------------
D------------7-9-7-9---------------7-4------------------
A----7-10-5----------5-5-5-5---5-----5-7--7----------
E--------------------------------------------------7-0----
__________
Tablatura de Contrabaixo da música De quem é? de Irmão Lázaro
((Só Cifras Gospel - Cifras e Letras Evangélicas))

Nenhum comentário:

Postar um comentário

Seu comentário não será aceito: caso seja pedido de cifra (utilize o email), caso utilize palavrões ou qualquer coisa que fira príncipios, ok."Somos sal da terra e luz do mundo"