(tablatura) Eu fui comprado - Fernandinho - Só Cifras Gospel

(tablatura) Eu fui comprado - Fernandinho

*Intro:
e-----------------------------
B-----------------------------
G-----------------------------
D-----------------------------
A--4-6--4-6-4-6-4---------
E---------------------6-4----

*Refrão:
Todo mundo: pulando, pulando, pulando
Na presença de Deus
e------------------------------------------------------
B------------------------------------------------------
G-----------------------6-----------------------------
D---6/8--6--8--6--8--6--8---6--------------------
A---6/8--6--8--6---8-----8---6---7--6--4--8----
E------------------------------------7--6--4--6----
______________________________
Tablatura de Guitarra da música Eu fui comprado de Fernandinho
((Só Cifras Gospel - Cifras e Letras Evangélicas))

2 comentários:

Seu comentário não será aceito: caso seja pedido de cifra (utilize o email), caso utilize palavrões ou qualquer coisa que fira príncipios, ok."Somos sal da terra e luz do mundo"