(tablatura) Eu te louvarei meu bom Jesus - Ronaldo Bezerra

G-------------------------
D------6-7-6--------------
A-7-9---------9-7---------
E------------------9-7----

Em todo tempo te louvarei,

G-----------------6-------
D------6-7-6----6---9-----
A-7-9---------9-----------
E-------------------------

Em todo tempo te adorarei

o resto da música é tocado baseado na Cifra 
_____________________________
Tablatura de Contrabaixo da música Eu te louvarei meu Bom Jesus de Ronaldo Bezerra
((Só Cifras Gospel - Cifras e Letras Evangélicas))

Nenhum comentário

Seu comentário não será aceito: caso seja pedido de cifra (utilize o email), caso utilize palavrões ou qualquer coisa que fira príncipios, ok."Somos sal da terra e luz do mundo"

Tecnologia do Blogger.