(tablatura) Tua graça me basta - Toque no Altar

0 comentários
SOLO

E-------------------------------------------------
B-------------------------------------------------
G-6/9-8-------------------------------------------
D-------9-9-11-9h11-9-11-9-6-6-7-6h7-7-9-11-------
A-------------------------------------------14/11-
E-------------------------------------------------

E----------------------------------------14-16-17-16b17-
B-16b17-17b16-12-12-14-12h14-12/14-16-17----------------
G-------------------------------------------------------
D-------------------------------------------------------
A-------------------------------------------------------
E-------------------------------------------------------

E---------------------------------------------------------
B---------------------------------------------------------
G--------------------9-11-11-11-9------9------------------
D-9-11-7-2-4-4--9/11--------------11-9---11-9-------------
A-9-11-7-2-4-4--------------------------------11-9--------
E-7-9--5-0-2-2-------------------------------------12-9-7-

E--------------------12h11-11h12---11---------------------
B--------------17b19------------12---12-------------------
G--------------------------------------11-9-8-9-8---8-----
D-9-11-7-2-4-4-----------------------------------9/8-9-11-
A-9-11-7-2-4-4--------------------------------------------
E-7-9--5-0-2-2--------------------------------------------

______________________
Tablatura de Guitarra da música Tua graça me basta de Toque no Altar
((Só Cifras Gospel - Cifras e Letras Evangélicas))

Deixe seu comentário

Seu comentário não será aceito: caso seja pedido de cifra (utilize o email), caso utilize palavrões ou qualquer coisa que fira príncipios, ok."Somos sal da terra e luz do mundo"

 

((Só Cifras Gospel - Cifras, Tablaturas e Letras Evangélicas)) 2007-2015 - Portal da Música Gospel com: cifras; letras, tablaturas, artigos, dicionário de acordes, escalas, afinador online e mais... Atualizado constantemente. Todas as letras das músicas, melodias e harmonias pertencem aos seus respectivos compositores e cantores, uso somente para fins educativos. Se você gostou do site, coloque nosso link no seu site ou blog e ajude a divulgar nosso trabalho.

Proíbida a reprodução total ou parcial. Hospedagem: Blogger

Só Cifras Gospel © 2015 DheTemplate.com & Main Blogger. Supported by Makeityourring Diamond Engagement Rings