(Artigo) Aprenda mais sobre arpejos

0 comentários
Fala galera, Gostaria de falar um pouco sobre arpejos, e uma forma diferente de imaginá-los. Os dois exemplos estão em "Dó".

É comum dos guitarristas como no exemplo do acorde "Dó", sair com um arpejo de justamente dele, o que torna a melodia comum, tradicional. O que propus é pensarmos na extensão do campo harmônico.

Como no primeiro acorde, Dó, onde saí do terceiro grau Mi menor, e assim fiz também com todos os outros acordes. Isso torma a melodia sofisticada e incomum! Além de melhorar sua velocidade de raciocínio.

Experimentem gravar a melodia C-Am-F-G e tocar os arpejos.
Acorde C- Arpejo Em5+(3°grau) Acorde Am- Arpejo C7M(3°grau)

E||----------3-7-3-------3-7-8-7-3-7-|------------3-7-8-12-8----------------|
B||--------5-------5---5-------------|----------5------------8--------------|
G||------4-----------4---------------|--------5----------------9------------|
D||----5-----------------------------|------5--------------------10---------|
A||--7-------------------------------|--3-7-------------------------10------|
E||----------------------------------|---------------------------------12-8-|


Acorde F- Arpejo Am(3°grau)
--------------5-8-12-8----------------|
------------5----------10-------------|
----------5---------------9-----------|
--------7-------------------10--------|
------7------------------------12-7---|
--5-8-------------------------------8-|


Acorde G- Arpejo D(5°grau)
--------------------10-17-14----------------------|-----|-----||
-----------------10----------15-------------------|-----|-----||
--------------11----------------14----------------|-----|-----||
-----------12----------------------16----------12-|-----|-----||
--------12----------------------------17-12-------|-----|-----||
--10-14-------------------------------------14----|-----|-----||



Exemplo de arpejos com Saltos:

Acorde C- Arpejo de Em9
E||----------------------------------------------|
B||----------------------------------------------|
G||-----------------9-12-9-11-9----------------9-|
D||----------------------------------------------|
A||--14-10----10-14-------------14-10----10-14---|
E||--------12-------------------------12---------|

Acorde Am- Arpejo de C9
---------------8-12-8-10-8--------------8-|
------------------------------------------|
--12-9----9-12-------------12-9----9-12---|
-------10-----------------------10--------|
------------------------------------------|
------------------------------------------|

Acorde F- Arpejo de Am9
--------------------------------------------------|
-----------------10-13-10-12-10----------------10-|
--------------------------------------------------|
--14-10----10-14----------------14-10----10-14----|
--------12----------------------------12----------|
--------------------------------------------------|

Acorde G- Arpejo de D9

-----------------10-14-10-12-10----------------10---||
----------------------------------------------------||
--14-11----11-14----------------14-11----11-14------||
--------12----------------------------12------------||
----------------------------------------------------||
----------------------------------------------------||

Espero que tenham gostado. Abraços
________________
Artigo Aprenda mais sobre arpejos
Autor: Luiz (luisao_levitadedeus@hotmail.com)
((Só Cifras Gospel - Cifras e Letras Evangélicas))

Deixe seu comentário

Seu comentário não será aceito: caso seja pedido de cifra (utilize o email), caso utilize palavrões ou qualquer coisa que fira príncipios, ok."Somos sal da terra e luz do mundo"

 

((Só Cifras Gospel - Cifras, Tablaturas e Letras Evangélicas)) 2007-2015 - Portal da Música Gospel com: cifras; letras, tablaturas, artigos, dicionário de acordes, escalas, afinador online e mais... Atualizado constantemente. Todas as letras das músicas, melodias e harmonias pertencem aos seus respectivos compositores e cantores, uso somente para fins educativos. Se você gostou do site, coloque nosso link no seu site ou blog e ajude a divulgar nosso trabalho.

Proíbida a reprodução total ou parcial. Hospedagem: Blogger

Só Cifras Gospel © 2015 DheTemplate.com & Main Blogger. Supported by Makeityourring Diamond Engagement Rings