(Artigo) Agilidade no instrumento

4 comentários

     Fala galera do Só Cifras Gospel! Hoje vamos abordar um tema muito importante para o músico, a agilidade. Quem é que nunca se impressinou com a rapidez das mãos do guitarrista ou tecladista durante um solo, não é verdade. Isto tudo é devido a muito treino e repetição e você também poderá alcançar este nível, quer saber como? Através de muitos exércicios, vamos lá!
     Abaixo segue um lista de exercícios que se feitos diariamente e repetidamente levarão você a conquistar seus objetivos. Os números indicados na tablatura são as posições do dedo e as casas do instrumento, onde cada dedo deve ficar em um casa. Quando dominar estes exercícios passe a repetir escalas e modos gregos da forma descendente e ascendente (indo e voltando) por várias partes do braço do instrumento ou casas do teclado indo do grave ao agudo.

     Obs: Sempre antes de qualquer exercício físico faça um aquecimento. Começe sempre devagar e vá acelerando com a prática e o tempo.

Guitarra/ Violão/ Contrabaixo

E-1-2-3-4-----------------------------------------------------
B------------1-2-3-4------------------------------------------
G----------------------1-2-3-4--------------------------------
D--------------------------------1-2-3-4----------------------
A------------------------------------------1-2-3-4------------
E-----------------------------------------------------1-2-3-4-

E-1-3-2-4-----------------------------------------------------
B-----------1-2-3-4-------------------------------------------
G---------------------1-3-2-4---------------------------------
D-------------------------------1-2-3-4-----------------------
A------------------------------------------1-3-2-4------------
E-----------------------------------------------------1-2-3-4-

E-1-----------4-1-2-3-4-------------------------------------
B--2--------3--------------------1-2-4-------------4-3-2-1--
G----3----2-----------------1-3----------4-3-2-1------------
D------4-1--------------------------------------------------
A-----------------------------------------------------------
E-----------------------------------------------------------

Tecladista

Dó, Ré, Mi, Fá, Sol, Lá, Si

Si, Lá, Sol, Fá, Mi, Ré, Dó

Dó, Mi, Fá, Sol, Lá, Dó, Ré

Lá, Si, Dó#, Ré, Mi, Fá#, Sol#, Lá

* Aprenda mais vendo os seguintes artigos:

 - Escala musical
 - Escalas e Modos gregos (diversos artigos)
_______________
Artigo Agilidade no istrumento
Autor: Ícaro J. S. R.
Fonte: (http://www.socifrasgospel.com/2012/08/artigo-agilidade-no-instrumento.html)

4 Comentários.

Deixe seu comentário

Seu comentário não será aceito: caso seja pedido de cifra (utilize o email), caso utilize palavrões ou qualquer coisa que fira príncipios, ok."Somos sal da terra e luz do mundo"

 

((Só Cifras Gospel - Cifras, Tablaturas e Letras Evangélicas)) 2007-2015 - Portal da Música Gospel com: cifras; letras, tablaturas, artigos, dicionário de acordes, escalas, afinador online e mais... Atualizado constantemente. Todas as letras das músicas, melodias e harmonias pertencem aos seus respectivos compositores e cantores, uso somente para fins educativos. Se você gostou do site, coloque nosso link no seu site ou blog e ajude a divulgar nosso trabalho.

Proíbida a reprodução total ou parcial. Hospedagem: Blogger

Só Cifras Gospel © 2015 DheTemplate.com & Main Blogger. Supported by Makeityourring Diamond Engagement Rings