(tablatura) Meu mestre - Irmão Lázaro

0 comentários
INTRO:

E----0-3-2-0---0-2-2----3-2----0-3-2-0---5/7-5-5--
B---3--------3-3--------3-3---3---------3---------
G--2---4-2-2---2------2-2-2--2---4-2-2---5/7-6-6--
D-0------------0-----0------0---------------------
A----------------------------------------0------0-
E-------------------------------------------------

E------------2-0--------3p2-0--------------------2---2-0---0-2-
B-5-5-3-2------0-3-3-0--0----0----0----3--3------3--3--2--3--3-
G-6-6-4-2--2---2--------0-----0/2--0---2--0--0-3-2-2---2-2---2-
D-7-7-5-2-2----2---------------------0-0--0-0-0--------------0-
A-------0------0--------0------------------------2-----0-------
E-----------------------------------0--2--3--------------------
____________________
Tablatura de Guitarra/Violão da música Meu mestre do Irmão Lázaro
((Só Cifras Gospel - Cifras e Letras Evangélicas))
Tab enviada por Junior J. R

Deixe seu comentário

Seu comentário não será aceito: caso seja pedido de cifra (utilize o email), caso utilize palavrões ou qualquer coisa que fira príncipios, ok."Somos sal da terra e luz do mundo"

 

((Só Cifras Gospel - Cifras, Tablaturas e Letras Evangélicas)) 2007-2015 - Portal da Música Gospel com: cifras; letras, tablaturas, artigos, dicionário de acordes, escalas, afinador online e mais... Atualizado constantemente. Todas as letras das músicas, melodias e harmonias pertencem aos seus respectivos compositores e cantores, uso somente para fins educativos. Se você gostou do site, coloque nosso link no seu site ou blog e ajude a divulgar nosso trabalho.

Proíbida a reprodução total ou parcial. Hospedagem: Blogger

Só Cifras Gospel © 2015 DheTemplate.com & Main Blogger. Supported by Makeityourring Diamond Engagement Rings