(tablatura) Na côrte do Egito - Trazendo a Arca

0 comentários
INTRO
e-------------------------------------------
B-10----10------10-11-10----12------
G----12----------------------12----------
D-----------12----------------------12--- }3x
A------------------------------------------
E------------------------------------------

e---------------------------------------------
B-------------11-10----10-10--------------
G-10-9----9--------12--------12-10-9----
D-------12-------------------------------12-
A---------------------------------------------
E---------------------------------------------

e-------------------------------------------
B-10----10------10-11-10----12------
G----12----------------------12----------
D-----------12----------------------12---
A------------------------------------------
E------------------------------------------


e--------------10-9---------------------
B--------------------11-10--------------
G-10-9----9--------------12-10-9----
D-------12--------------------------12-
A----------------------------------------
E----------------------------------------
______________________________
Tablatura de Guitarra da música Na côrte do Egito de Trazendo a Arca
((Só Cifras Gospel - Cifras e Letras Evangélicas))

Deixe seu comentário

Seu comentário não será aceito: caso seja pedido de cifra (utilize o email), caso utilize palavrões ou qualquer coisa que fira príncipios, ok."Somos sal da terra e luz do mundo"

 

((Só Cifras Gospel - Cifras, Tablaturas e Letras Evangélicas)) 2007-2015 - Portal da Música Gospel com: cifras; letras, tablaturas, artigos, dicionário de acordes, escalas, afinador online e mais... Atualizado constantemente. Todas as letras das músicas, melodias e harmonias pertencem aos seus respectivos compositores e cantores, uso somente para fins educativos. Se você gostou do site, coloque nosso link no seu site ou blog e ajude a divulgar nosso trabalho.

Proíbida a reprodução total ou parcial. Hospedagem: Blogger

Só Cifras Gospel © 2015 DheTemplate.com & Main Blogger. Supported by Makeityourring Diamond Engagement Rings